Announcement

Collapse
No announcement yet.

yang bisa drop,d,c,a plis bantu..

Collapse
X
  • Filter
  • Time
  • Show
Clear All
new posts

  • reckha080191
    started a topic yang bisa drop,d,c,a plis bantu..

    yang bisa drop,d,c,a plis bantu..

    GAN ANE MINTA BANTUANYA AMA AGAN SEKALIAN..??

    OIA GAN CARA NENTUIN CHORD DI DROP D, C AMA A ITU GMNA SIH,...???

    MISALKAN CHORD F AMA C ITU LETAKNYA DI FRET BERAPA N YG DITEKEN SENAR BRP AJA..??

    KLO ADA YG BISA KASI LINK TENTANG CHORD2 GITAR DROP D,C, AMA A JUGA BOLEH...??

    THX SEBELUMNYA...

  • DarceyKr
    replied
    yang bisa dropdca plis bantu

    yang ane baca dari komik tinju, kalo kena dagu memang bisa bikin pingsan.. hehe

    Leave a comment:


  • boni77
    replied
    ini menurut ilmu yang gue tau sih gan, moga membantu.
    jadi misalkan gitar agan stelannya standar EADGBE nah kalo mo dibikin Drop D ente kendorin ato turunin 2 nada pada senar 6 jadi deh Droped D Tuning. nah kalo masalah chordnya ane biasanya ngambil dasar dari chord Balok..

    Ini contoh standar chord F

    e-------------------------------------------------------------------|
    B-------------------------------------------------------------------|
    G-------------------------------------------------------------------|
    D----3--------------------------------------------------------------|
    A----3--------------------------------------------------------------|
    E----1--------------------------------------------------------------|

    ini yang Drop D Chord F
    e-------------------------------------------------------------------|
    B-------------------------------------------------------------------|
    G-------------------------------------------------------------------|
    D----3--------------------------------------------------------------|
    A----3--------------------------------------------------------------|
    D----3--------------------------------------------------------------|

    D E F G
    e-------------------------------------------------------------------|
    B-------------------------------------------------------------------|
    G-------------------------------------------------------------------|
    D-----0----2-----3-----5---------------------------------------------|
    A-----0----2-----3-----5---------------------------------------------|
    D-----0----2-----3-----5---------------------------------------------|
    SEkian semoga membantu

    Leave a comment:

Working...
X